Guitar Tab - Intro to "A Fine Day to Die"
Transcription: Gavin.

I think the intro to "A Fine Day to Die" goes something like this:

e --------------------------------------------------------------------------
b --------------------------------------------------------------------------
g --------------------------------------------------------------------------
d -----5--------5-------5-------5-------5-------5-------3--------3----------
a ---3---3----3---3---6---3---6---3---3---3---3---3---5---5----5---5--------
e -3--------3-------3-------3-------3-------3-------3-------3---------------
                                                             (slower)
Then something like:

e --------------------------------------------------------------------------
b --------------------------------------------------------------------------
g --------------------------------------------------------------------------
d -----5--------5-------5-------5-------5-------5-------3--------5----------
a ---3---3----3---3---6---3---6---3---3---3---3---3---5---5----2---2--------
e -3--------3-------3-------3-------3-------3-------3-------3---------------
                                                             (slower)

Then sometimes this is added to the end of the second line:

e ------------------
b ------------------
g ------------------
d ---5---5----------
a -3---2------------
e ------------------