Guitar tab - One Eyed Old Man
"ONE-EYED OLD MAN"
BY BATHORY
FROM THE ALBUM "BLOOD ON ICE"
TRANSCRIBED BY HROTHGAR
E-MAIL: axelegend@hotmail.com


I think most of this is right, some bits may be a little off, because I
couldn't hear the guitar very clearly all throughout the song, it sounds
okay to me. If you have any comments or suggestions, please mail them to me.

Listen to the song for timing.

RIFF A
---------------|---|-----------------||
---------------|---|-----------------||
-4-4-4-4-4-4-2-|---|-----------------||
-4-4-4-4-4-4-2-|-%-|-55-555-5-55-555-||
-2-2-2-2-2-2-0-|---|-55-555-5-55-555-||
---------------|---|-33-333-3-33-333-||

FILL 1
----------||
----------||
----------||
-4-4.....-||
-4-4.....-||
-2-2.....-||

VERSE
Rhy Fig.1               end Rhy.Fig.1
-----------------|---|---|-----------|----------|-------------|----------|-
-----------------|---|---|-----------|----------|-------------|----------|-
o-4-4-4-4-4-4-2'-|---|---|----------o|----------|-7-7-7-7-7-7-|----------|-
o-4-4-4-4-4-4-2'-|-%-|-%-|-5-55-555-o|-4-4.....-|-7-7-7-7-7-7-|-4-4.....-|-
--2-2-2-2-2-2-0--|---|---|-5-55-555--|-4-4.....-|-5-5-5-5-5-5-|-4-4.....-|-
-----------------|---|---|-3-33-333--|-2-2.....-|-------------|-2-2.....-|-

            PLAY ONLY
            IN VERSE 2
----------||-----||
----------||-----||
-4----4-2-||-2---||
-4----4-2-||-2---||
-2----2-0-||-0---||
----------||-----||

After VERSE 1, there is a solo over Rhy.Fig.1.
After VERSE 2, there is the long interlude with soundeffects and the old
man's speech.
Then:

FADE IN WITH KNOB:
---------||
---------||
---------||
-2-------||
-2-------||
-0-------||

Then play Rhy.Fig.1 two more times. And finally play this:
---------|---|---|---|-------||
---------|---|---|---|-------||
---------|---|---|---|-4-----||
-555-555-|-%-|-%-|-%-|-4-----||
-555-555-|---|---|---|-2-----||
-333-333-|---|---|---|-------||

That's it.

Symbol explanation:
%	= Repeat the previous measure entirely
.....	= Uncertain number of times note/chord played
'	= Pause