~From: Steve Mueller 

Here is the tablature for Sepultura's "Refuse/Resist" from their CD,
Chaos A.D. I hope you enjoy this.  Any questions?  Email me at:
ICSLM@asuvm.inre.asu.edu



                          Refuse/Resist
                          -------------

                           by Sepultura



Note:  You must tune your guitar down to a D (from low to high: D, G, C, F,
       A, and D)







Riff A:
-------


F5 F5 F5 F5 E5
                  play 4 times
---palm mute---





After playing Riff A 4x, play Riff B four times


Riff B
------

----------------------------------------------------------------------------
----------------------------------------------------------------------------
----------------------------------------------------------------------------
----------------------------------------------------------------------------
----------------------------------------------------------------------------
--6-6-6-6-0--6-6-6-6-0--6-0-0-----------------------------------------------




After completing Riff B four times, play Riff B.1 four times while playing
Riff B four more times



Riff B.1    (must use with wah-wah pedal!)
--------


----------------------------------------------------------------------------
-11-11-11-11----11-11-11-11----11-11----------------------------------------
-------------9--------------9--------9--------------------------------------
----------------------------------------------------------------------------
----------------------------------------------------------------------------
----------------------------------------------------------------------------




Riff C (the jammin' riff before verses)
-------

chord progression:


A#5  X X    C#5  E5(VII) E5(VII)
   (mute
   strings)



A#5  C#5  E5(VII)



A#5  X X  C#5  E5(VII) E5(VII)


E5(VII)  E5(VII)  E5(VII)  E5(VII)





Verse Chords:
-------------

 E E E E    E5   (E5)  F5 G5 G#5  (play 8 times total)

-palm mute-



Play Riff B 3 times between 1st and 2nd verses


Continue Second Verse with the above verse chords




Chorus:
-------


(Right after the lyric, "What is this shit?")


 C5  C5 C5  C5  C5  G#5  G#5  G#5  G#5  E5

Note:  (the E5 chord lands right on the word, "Refuse" - this is so you
        you can have a feel where the song is going)


(continuing after the word "Refuse")



 A#5(VI)  A#5(VI) A#5(VI)  A#5(VI)  A#5(VI)  A#5(VI)  G#5  E5



Note:  (again, to clarify where you are in the song, the G#5 chord lands
        on the syllable "Re" in the word "Resist" and the E5 chord lands
        on the "sist" syllable.  The A#5(VI) chords are the 'filler' chords
        between the words "Refuse" and "Resist")


(continuing on after the last E5 chord from above)


 C5  C5 C5  C5  G#5  G#5  E5


Note: (again,the E5 chord lands on the word "Refuse" again)



(continuing on again from the above chords)


 A#5(VI)  A#5(VI) A#5(VI)  A#5(VI)  A#5(VI)  A#5(VI) A#5(VI)  G#5




Note: (here the song, following the above G#5 chord, goes into a different
       tempo, preparing the song for the ensuing solo.  These following
       will lead up to the solo)





Before Solo
-----------

Chord Progression:

D5 C#5   C#5  G#5 G5  G5  D5 C#5  C#5  D5 C#5  C#5  G#5 G5  G5  D5 C#5

C#5  D5 C#5


Note:  (the timing on these chords is way off.  Listen to the song to get
        the accurate feel, something similiar to a two-chord progression
        broken up by one chord in the middle:
        dee-duh, da, dee-duh, da, dee-duh)




Solo
----


-----------------------------------------------|----------------------------
-----------------------------------------------|----------------------------
-16--------16-16-16-16-16-16-16-16-16-16-16-16-|-16-16-16-16-16-16-16-16-16-
-----------------------------------------------|----------------------------
-----------------------------------------------|----------------------------
-----------------------------------------------|----------------------------

|---------------------------with wah pedal----------------------------------|



---------------------------------------------------------------------------
---------------------14h17p14----14h17p14----14-17-14----------------------
16-16-16-16-\--/-16-----------16----------16----------16p14-16-14----------
------------------------------------------------------------------16-------
---------------------------------------------------------------------------
---------------------------------------------------------------------------

|--wah pedal------|   (use wah as filter for rest of solo)



--------------------------------------------------6-6-6-7-6-6-6-7-6-6-6-7-6-
----------------------------------------------------------------------------
-------14h16-14-------------------------------------------------------------
-14-16----------16p14-16p14------------------4-4----------------------------
-----------------------------16p14---(14)\----------------------------------
----------------------------------------------------------------------------


--------------------------------|-------------------------------------------
--------------------------------|------14-14-14---16^(1/2)-----(16)---------
--------------------------------|------14-14-14---16^(1/2)-----(16)-6--2----
-4-4-4^(1/2)--4-4-4^(1/2)-------|--------------------------------------2----
---------------------------x/-0-|-(0)---------------------------------------
--------------------------------|----------------------------------------/17\

                       -pick slide-                               -slide up-
                                                                  -slide dwn-




      ~~~~                    ~~~~~
------------------|----------------------------------------------------------
------------6--6--|----------------------------------------------------------
------------5--5--|----------------------------------------------------------
------------------|----------------------------------------------------------
-4h6p4------------|--4h6p4 (6)------6--6^(full)--(6)\--4h6p4h6p4-------------
------------------|----------------------------------------------7-----------




                                          ~~~~~
-------------------|-------------------------------9--9\-----9--9--9-9-------
-------------------|----------------------------5/-9--9\--5/-9--9--9-9-------
-------------------|-/8p6h8p6--6--8^(full)-----------------------------------
-5--7--5h7p5-5---5-|---------------------------------------------------------
-------------------|---------------------------------------------------------
-------------------|---------------------------------------------------------


                                                               ~~~~~
-9h12-9h12p9---------------|------------9h12p9------12-------22------(22)\---
-------------11----11\-----|------4/11---------11--(11)-/-21-----------------
----------------9---9\-----|---2---------------------------------------------
-------------------------0-|-1-----------------------------------------------
---------------------------|-------------------------------------------------
---------------------------|-------------------------------------------------

                                                                solo out...



Play Riff B 4x before entering final verses


Play verse chords until final chorus

Play chorus chords during final chorus

Play Riff A twice at end of song (with the drums)




That's It!  Good luck!




Notation Legend
---------------

h - hammer on

p - pull off

~~~ - vibrato

^ - indicates bend (followed by the degree in parenthesis)

4 (6)~~~ - trill between the two indicated frets

/ - slide up

\ - slide down





Chord Legend
------------


 A#5   C#5   E#5(VII)  E5   F5  G5  G#5   C5  A#5(VI)  D5  F#5

----------------------------------------------------------------------------
----------------------------------------------------------------------------
----------------------------------------------------------------------------
--3-----6-------9---------------------------------------7-------------------
--1-----4-------7-------2----3---5---6----10----8-------5---4---------------
----------------0-------0----1---3---4-----8----6-----------2---------------